  0
SECTION
  2
HEADER
  9
$ACADVER
  1
AC1015
  9
$ACADMAINTVER
 70
     6
  9
$DWGCODEPAGE
  3
ANSI_1254
  9
$INSBASE
 10
0.0
 20
0.0
 30
0.0
  9
$EXTMIN
 10
0.0
 20
0.0
 30
0.0
  9
$EXTMAX
 10
279.4
 20
215.9
 30
0.0
  9
$LIMMIN
 10
0.0
 20
0.0
  9
$LIMMAX
 10
279.4
 20
215.9
  9
$ORTHOMODE
 70
     0
  9
$REGENMODE
 70
     1
  9
$FILLMODE
 70
     1
  9
$QTEXTMODE
 70
     0
  9
$MIRRTEXT
 70
     1
  9
$LTSCALE
 40
1.0
  9
$ATTMODE
 70
     1
  9
$TEXTSIZE
 40
3.5
  9
$TRACEWID
 40
1.0
  9
$TEXTSTYLE
  7
Standard
  9
$CLAYER
  8
0
  9
$CELTYPE
  6
ByLayer
  9
$CECOLOR
 62
   256
  9
$CELTSCALE
 40
1.0
  9
$DISPSILH
 70
     0
  9
$DIMSCALE
 40
1.0
  9
$DIMASZ
 40
3.5
  9
$DIMEXO
 40
1.0
  9
$DIMDLI
 40
3.75
  9
$DIMRND
 40
0.0
  9
$DIMDLE
 40
0.0
  9
$DIMEXE
 40
1.0
  9
$DIMTP
 40
0.0
  9
$DIMTM
 40
0.0
  9
$DIMTXT
 40
3.5
  9
$DIMCEN
 40
2.5
  9
$DIMTSZ
 40
0.0
  9
$DIMTOL
 70
     0
  9
$DIMLIM
 70
     0
  9
$DIMTIH
 70
     1
  9
$DIMTOH
 70
     1
  9
$DIMSE1
 70
     0
  9
$DIMSE2
 70
     0
  9
$DIMTAD
 70
     1
  9
$DIMZIN
 70
     0
  9
$DIMBLK
  1

  9
$DIMASO
 70
     1
  9
$DIMSHO
 70
     1
  9
$DIMPOST
  1

  9
$DIMAPOST
  1

  9
$DIMALT
 70
     0
  9
$DIMALTD
 70
     3
  9
$DIMALTF
 40
0.0393700787
  9
$DIMLFAC
 40
1.0
  9
$DIMTOFL
 70
     1
  9
$DIMTVP
 40
0.0
  9
$DIMTIX
 70
     0
  9
$DIMSOXD
 70
     0
  9
$DIMSAH
 70
     0
  9
$DIMBLK1
  1

  9
$DIMBLK2
  1

  9
$DIMSTYLE
  2
ISO-25
  9
$DIMCLRD
 70
     0
  9
$DIMCLRE
 70
     0
  9
$DIMCLRT
 70
     0
  9
$DIMTFAC
 40
1.0
  9
$DIMGAP
 40
1.524
  9
$DIMJUST
 70
     0
  9
$DIMSD1
 70
     0
  9
$DIMSD2
 70
     0
  9
$DIMTOLJ
 70
     0
  9
$DIMTZIN
 70
     0
  9
$DIMALTZ
 70
     0
  9
$DIMALTTZ
 70
     0
  9
$DIMUPT
 70
     0
  9
$DIMDEC
 70
     2
  9
$DIMTDEC
 70
     2
  9
$DIMALTU
 70
     2
  9
$DIMALTTD
 70
     3
  9
$DIMTXSTY
  7
Standard
  9
$DIMAUNIT
 70
     0
  9
$DIMADEC
 70
     2
  9
$DIMALTRND
 40
0.0
  9
$DIMAZIN
 70
     0
  9
$DIMDSEP
 70
    44
  9
$DIMATFIT
 70
     3
  9
$DIMFRAC
 70
     0
  9
$DIMLDRBLK
  1

  9
$DIMLUNIT
 70
     2
  9
$DIMLWD
 70
    -2
  9
$DIMLWE
 70
    -2
  9
$DIMTMOVE
 70
     0
  9
$LUNITS
 70
     2
  9
$LUPREC
 70
     2
  9
$SKETCHINC
 40
1.0
  9
$FILLETRAD
 40
10.0
  9
$AUNITS
 70
     0
  9
$AUPREC
 70
     2
  9
$MENU
  1
.
  9
$ELEVATION
 40
0.0
  9
$PELEVATION
 40
0.0
  9
$THICKNESS
 40
0.0
  9
$LIMCHECK
 70
     0
  9
$CHAMFERA
 40
0.0
  9
$CHAMFERB
 40
0.0
  9
$CHAMFERC
 40
0.0
  9
$CHAMFERD
 40
0.0
  9
$SKPOLY
 70
     0
  9
$TDCREATE
 40
2458985.690745579
  9
$TDUCREATE
 40
2458985.565745579
  9
$TDUPDATE
 40
2458985.690745891
  9
$TDUUPDATE
 40
2458985.565745891
  9
$TDINDWG
 40
0.0000000116
  9
$TDUSRTIMER
 40
0.0000000116
  9
$USRTIMER
 70
     1
  9
$ANGBASE
 50
0.0
  9
$ANGDIR
 70
     0
  9
$PDMODE
 70
     0
  9
$PDSIZE
 40
-1.0
  9
$PLINEWID
 40
0.0
  9
$SPLFRAME
 70
     0
  9
$SPLINETYPE
 70
     6
  9
$SPLINESEGS
 70
     8
  9
$HANDSEED
  5
CB
  9
$SURFTAB1
 70
     6
  9
$SURFTAB2
 70
     6
  9
$SURFTYPE
 70
     6
  9
$SURFU
 70
     6
  9
$SURFV
 70
     6
  9
$UCSBASE
  2

  9
$UCSNAME
  2

  9
$UCSORG
 10
0.0
 20
0.0
 30
0.0
  9
$UCSXDIR
 10
1.0
 20
0.0
 30
0.0
  9
$UCSYDIR
 10
0.0
 20
1.0
 30
0.0
  9
$UCSORTHOREF
  2

  9
$UCSORTHOVIEW
 70
     0
  9
$UCSORGTOP
 10
0.0
 20
0.0
 30
0.0
  9
$UCSORGBOTTOM
 10
0.0
 20
0.0
 30
0.0
  9
$UCSORGLEFT
 10
0.0
 20
0.0
 30
0.0
  9
$UCSORGRIGHT
 10
0.0
 20
0.0
 30
0.0
  9
$UCSORGFRONT
 10
0.0
 20
0.0
 30
0.0
  9
$UCSORGBACK
 10
0.0
 20
0.0
 30
0.0
  9
$PUCSBASE
  2

  9
$PUCSNAME
  2

  9
$PUCSORG
 10
0.0
 20
0.0
 30
0.0
  9
$PUCSXDIR
 10
1.0
 20
0.0
 30
0.0
  9
$PUCSYDIR
 10
0.0
 20
1.0
 30
0.0
  9
$PUCSORTHOREF
  2

  9
$PUCSORTHOVIEW
 70
     0
  9
$PUCSORGTOP
 10
0.0
 20
0.0
 30
0.0
  9
$PUCSORGBOTTOM
 10
0.0
 20
0.0
 30
0.0
  9
$PUCSORGLEFT
 10
0.0
 20
0.0
 30
0.0
  9
$PUCSORGRIGHT
 10
0.0
 20
0.0
 30
0.0
  9
$PUCSORGFRONT
 10
0.0
 20
0.0
 30
0.0
  9
$PUCSORGBACK
 10
0.0
 20
0.0
 30
0.0
  9
$USERI1
 70
     0
  9
$USERI2
 70
     0
  9
$USERI3
 70
     0
  9
$USERI4
 70
     0
  9
$USERI5
 70
     0
  9
$USERR1
 40
0.0
  9
$USERR2
 40
0.0
  9
$USERR3
 40
0.0
  9
$USERR4
 40
0.0
  9
$USERR5
 40
0.0
  9
$WORLDVIEW
 70
     1
  9
$SHADEDGE
 70
     3
  9
$SHADEDIF
 70
    70
  9
$TILEMODE
 70
     1
  9
$MAXACTVP
 70
    64
  9
$PINSBASE
 10
0.0
 20
0.0
 30
0.0
  9
$PLIMCHECK
 70
     0
  9
$PEXTMIN
 10
1.0000000000E+20
 20
1.0000000000E+20
 30
1.0000000000E+20
  9
$PEXTMAX
 10
-1.0000000000E+20
 20
-1.0000000000E+20
 30
-1.0000000000E+20
  9
$PLIMMIN
 10
0.0
 20
0.0
  9
$PLIMMAX
 10
420.0
 20
297.0
  9
$UNITMODE
 70
     0
  9
$VISRETAIN
 70
     1
  9
$PLINEGEN
 70
     0
  9
$PSLTSCALE
 70
     1
  9
$TREEDEPTH
 70
  3020
  9
$CMLSTYLE
  2
Standard
  9
$CMLJUST
 70
     0
  9
$CMLSCALE
 40
20.0
  9
$PROXYGRAPHICS
 70
     1
  9
$MEASUREMENT
 70
     1
  9
$CELWEIGHT
370
    -1
  9
$ENDCAPS
280
     0
  9
$JOINSTYLE
280
     0
  9
$LWDISPLAY
290
     1
  9
$INSUNITS
 70
     4
  9
$HYPERLINKBASE
  1

  9
$STYLESHEET
  1

  9
$XEDIT
290
     1
  9
$CEPSNTYPE
380
     0
  9
$PSTYLEMODE
290
     1
  9
$FINGERPRINTGUID
  2
{d26a7be7-016a-4cde-a950-5ec91c794bce}
  9
$VERSIONGUID
  2
{FAEB1C32-E019-11D5-929B-00C0DF256EC4}
  9
$EXTNAMES
290
     1
  9
$PSVPSCALE
 40
0.0
  9
$OLESTARTUP
290
     0
  0
ENDSEC
  0
SECTION
  2
CLASSES
  0
CLASS
  1
ACDBDICTIONARYWDFLT
  2
AcDbDictionaryWithDefault
  3
ObjectDBX Classes
 90
        0
280
     0
281
     0
  0
CLASS
  1
VISUALSTYLE
  2
AcDbVisualStyle
  3
ObjectDBX Classes
 90
     4095
280
     0
281
     0
  0
CLASS
  1
MATERIAL
  2
AcDbMaterial
  3
ObjectDBX Classes
 90
     1153
280
     0
281
     0
  0
CLASS
  1
SCALE
  2
AcDbScale
  3
ObjectDBX Classes
 90
     1153
280
     0
281
     0
  0
CLASS
  1
TABLESTYLE
  2
AcDbTableStyle
  3
ObjectDBX Classes
 90
     4095
280
     0
281
     0
  0
CLASS
  1
MLEADERSTYLE
  2
AcDbMLeaderStyle
  3
ACDB_MLEADERSTYLE_CLASS
 90
     4095
280
     0
281
     0
  0
CLASS
  1
SUN
  2
AcDbSun
  3
SCENEOE
 90
     1153
280
     0
281
     0
  0
CLASS
  1
ACDBPLACEHOLDER
  2
AcDbPlaceHolder
  3
ObjectDBX Classes
 90
        0
280
     0
281
     0
  0
CLASS
  1
LAYOUT
  2
AcDbLayout
  3
ObjectDBX Classes
 90
        0
280
     0
281
     0
  0
ENDSEC
  0
SECTION
  2
TABLES
  0
TABLE
  2
VPORT
  5
8
330
0
100
AcDbSymbolTable
 70
     1
  0
VPORT
  5
29
330
8
100
AcDbSymbolTableRecord
100
AcDbViewportTableRecord
  2
*Active
 70
     0
 10
0.0
 20
0.0
 11
1.0
 21
1.0
 12
139.7
 22
107.95
 13
0.0
 23
0.0
 14
10.0
 24
10.0
 15
10.0
 25
10.0
 16
0.0
 26
0.0
 36
1.0
 17
0.0
 27
0.0
 37
0.0
 40
215.9
 41
1.2941176471
 42
50.0
 43
0.0
 44
0.0
 50
0.0
 51
0.0
 71
     0
 72
  2000
 73
     1
 74
     3
 75
     0
 76
     0
 77
     0
 78
     0
281
     0
 65
     1
110
0.0
120
0.0
130
0.0
111
1.0
121
0.0
131
0.0
112
0.0
122
1.0
132
0.0
 79
     0
146
0.0
  0
ENDTAB
  0
TABLE
  2
LTYPE
  5
5
330
0
100
AcDbSymbolTable
 70
     6
  0
LTYPE
  5
14
330
5
100
AcDbSymbolTableRecord
100
AcDbLinetypeTableRecord
  2
ByBlock
 70
     0
  3

 72
    65
 73
     0
 40
0.0
  0
LTYPE
  5
15
330
5
100
AcDbSymbolTableRecord
100
AcDbLinetypeTableRecord
  2
ByLayer
 70
     0
  3

 72
    65
 73
     0
 40
0.0
  0
LTYPE
  5
16
330
5
100
AcDbSymbolTableRecord
100
AcDbLinetypeTableRecord
  2
Continuous
 70
     0
  3
Solid line
 72
    65
 73
     0
 40
0.0
  0
LTYPE
  5
6E
330
5
100
AcDbSymbolTableRecord
100
AcDbLinetypeTableRecord
  2
HIDDEN
 70
     0
  3
Hidden __ __ __ __ __ __ __ __ __ __ __ __ __ __
 72
    65
 73
     2
 40
1.905
 49
1.27
 74
     0
 49
-0.635
 74
     0
  0
LTYPE
  5
6F
330
5
100
AcDbSymbolTableRecord
100
AcDbLinetypeTableRecord
  2
PHANTOM
 70
     0
  3
Phantom ______  __  __  ______  __  __  ______
 72
    65
 73
     6
 40
12.7
 49
6.35
 74
     0
 49
-1.27
 74
     0
 49
1.27
 74
     0
 49
-1.27
 74
     0
 49
1.27
 74
     0
 49
-1.27
 74
     0
  0
LTYPE
  5
70
330
5
100
AcDbSymbolTableRecord
100
AcDbLinetypeTableRecord
  2
CENTER
 70
     0
  3
Center ____ _ ____ _ ____ _ ____ _ ____ _ ____
 72
    65
 73
     4
 40
10.16
 49
6.35
 74
     0
 49
-1.27
 74
     0
 49
1.27
 74
     0
 49
-1.27
 74
     0
  0
LTYPE
  5
71
330
5
100
AcDbSymbolTableRecord
100
AcDbLinetypeTableRecord
  2
CENTERX2
 70
     0
  3
Center (2x) ________  __  ________  __  _____
 72
    65
 73
     4
 40
20.32
 49
12.7
 74
     0
 49
-2.54
 74
     0
 49
2.54
 74
     0
 49
-2.54
 74
     0
  0
LTYPE
  5
72
330
5
100
AcDbSymbolTableRecord
100
AcDbLinetypeTableRecord
  2
DOT2
 70
     0
  3
Dot (.5x) ........................................
 72
    65
 73
     2
 40
0.635
 49
0.0
 74
     0
 49
-0.635
 74
     0
  0
ENDTAB
  0
TABLE
  2
LAYER
  5
2
330
0
100
AcDbSymbolTable
 70
    17
  0
LAYER
  5
10
330
2
100
AcDbSymbolTableRecord
100
AcDbLayerTableRecord
  2
0
 70
     0
 62
     7
  6
Continuous
370
    -3
390
F
  0
LAYER
  5
73
330
2
100
AcDbSymbolTableRecord
100
AcDbLayerTableRecord
  2
FORMAT
 70
     0
 62
     7
  6
Continuous
370
    -3
390
F
  0
LAYER
  5
74
330
2
100
AcDbSymbolTableRecord
100
AcDbLayerTableRecord
  2
YARDIMCI_GEOMETRI
 70
     0
 62
    -6
  6
Continuous
290
     0
370
    -3
390
F
  0
LAYER
  5
75
330
2
100
AcDbSymbolTableRecord
100
AcDbLayerTableRecord
  2
SAYFA_CERCEVESI
 70
     0
 62
     7
  6
Continuous
370
    25
390
F
  0
LAYER
  5
76
330
2
100
AcDbSymbolTableRecord
100
AcDbLayerTableRecord
  2
ANTET
 70
     0
 62
     7
  6
Continuous
370
    -3
390
F
  0
LAYER
  5
77
330
2
100
AcDbSymbolTableRecord
100
AcDbLayerTableRecord
  2
OLCU
 70
     0
 62
   150
  6
Continuous
370
    -3
390
F
  0
LAYER
  5
78
330
2
100
AcDbSymbolTableRecord
100
AcDbLayerTableRecord
  2
METIN
 70
     0
 62
    96
  6
Continuous
370
    -3
390
F
  0
LAYER
  5
79
330
2
100
AcDbSymbolTableRecord
100
AcDbLayerTableRecord
  2
BALON
 70
     0
 62
     5
  6
Continuous
370
    -3
390
F
  0
LAYER
  5
7A
330
2
100
AcDbSymbolTableRecord
100
AcDbLayerTableRecord
  2
VURGU
 70
     0
 62
     7
  6
Continuous
370
    -3
390
F
  0
LAYER
  5
7B
330
2
100
AcDbSymbolTableRecord
100
AcDbLayerTableRecord
  2
SILIK
 70
     0
 62
     7
  6
Continuous
370
    -3
390
F
  0
LAYER
  5
7C
330
2
100
AcDbSymbolTableRecord
100
AcDbLayerTableRecord
  2
MODEL
 70
     0
 62
     7
  6
Continuous
370
    -3
390
F
  0
LAYER
  5
7D
330
2
100
AcDbSymbolTableRecord
100
AcDbLayerTableRecord
  2
DETAYLANDıRMA
 70
     0
 62
   190
  6
Continuous
370
    -3
390
F
  0
LAYER
  5
7E
330
2
100
AcDbSymbolTableRecord
100
AcDbLayerTableRecord
  2
TOLERANS
 70
     0
 62
   230
  6
Continuous
370
    -3
390
F
  0
LAYER
  5
7F
330
2
100
AcDbSymbolTableRecord
100
AcDbLayerTableRecord
  2
MERKEZ_CIZGILERI
 70
     0
 62
    30
  6
Continuous
370
    -3
390
F
  0
LAYER
  5
80
330
2
100
AcDbSymbolTableRecord
100
AcDbLayerTableRecord
  2
KESIT-DETAY_CIZGILERI
 70
     0
 62
     7
  6
Continuous
370
    -3
390
F
  0
LAYER
  5
81
330
2
100
AcDbSymbolTableRecord
100
AcDbLayerTableRecord
  2
\U+041E\U+0421\U+0415\U+0412\U+042B\U+0415
 70
     0
 62
     7
  6
Continuous
370
    -3
390
F
  0
LAYER
  5
82
330
2
100
AcDbSymbolTableRecord
100
AcDbLayerTableRecord
  2
\U+0412\U+041E\U+0414\U+042F\U+041D\U+042B\U+0415_\U+0417\U+041D\U+0410\U+041A\U+0418
 70
     0
 62
    11
  6
Continuous
370
    -3
390
F
  0
ENDTAB
  0
TABLE
  2
STYLE
  5
3
330
0
100
AcDbSymbolTable
 70
     1
  0
STYLE
  5
11
330
3
100
AcDbSymbolTableRecord
100
AcDbTextStyleTableRecord
  2
Standard
 70
     0
 40
0.0
 41
1.0
 50
0.0
 71
     0
 42
3.5
  3
txt
  4

  0
ENDTAB
  0
TABLE
  2
VIEW
  5
6
330
0
100
AcDbSymbolTable
 70
     0
  0
ENDTAB
  0
TABLE
  2
UCS
  5
7
330
0
100
AcDbSymbolTable
 70
     0
  0
ENDTAB
  0
TABLE
  2
APPID
  5
9
330
0
100
AcDbSymbolTable
 70
     1
  0
APPID
  5
12
330
9
100
AcDbSymbolTableRecord
100
AcDbRegAppTableRecord
  2
ACAD
 70
     0
  0
ENDTAB
  0
TABLE
  2
DIMSTYLE
  5
A
330
0
100
AcDbSymbolTable
 70
     1
100
AcDbDimStyleTable
  0
DIMSTYLE
105
27
330
A
100
AcDbSymbolTableRecord
100
AcDbDimStyleTableRecord
  2
ISO-25
 70
     0
 41
2.5
 42
0.625
 43
3.75
 44
1.25
 73
     0
 74
     0
 77
     1
 78
     8
140
2.5
141
2.5
143
0.0393700787
147
0.625
171
     3
172
     1
178
     0
271
     2
272
     2
274
     3
278
    44
283
     0
284
     8
340
11
  0
ENDTAB
  0
TABLE
  2
BLOCK_RECORD
  5
1
330
0
100
AcDbSymbolTable
 70
     3
  0
BLOCK_RECORD
  5
1F
330
1
100
AcDbSymbolTableRecord
100
AcDbBlockTableRecord
  2
*Model_Space
340
22
  0
BLOCK_RECORD
  5
1B
330
1
100
AcDbSymbolTableRecord
100
AcDbBlockTableRecord
  2
*Paper_Space
340
1E
  0
BLOCK_RECORD
  5
23
330
1
100
AcDbSymbolTableRecord
100
AcDbBlockTableRecord
  2
*Paper_Space0
340
26
  0
BLOCK_RECORD
  5
88
330
1
100
AcDbSymbolTableRecord
100
AcDbBlockTableRecord
  2
SW_CENTERMARKSYMBOL_0
340
0
102
{BLKREFS
331
93
102
}
  0
BLOCK_RECORD
  5
9C
330
1
100
AcDbSymbolTableRecord
100
AcDbBlockTableRecord
  2
SW_CENTERMARKSYMBOL_1
340
0
102
{BLKREFS
331
A7
102
}
  0
ENDTAB
  0
ENDSEC
  0
SECTION
  2
BLOCKS
  0
BLOCK
  5
20
330
1F
100
AcDbEntity
  8
0
100
AcDbBlockBegin
  2
*Model_Space
 70
     0
 10
0.0
 20
0.0
 30
0.0
  3
*Model_Space
  1

  0
ENDBLK
  5
21
330
1F
100
AcDbEntity
  8
0
100
AcDbBlockEnd
  0
BLOCK
  5
1C
330
1B
100
AcDbEntity
 67
     1
  8
0
100
AcDbBlockBegin
  2
*Paper_Space
 70
     0
 10
0.0
 20
0.0
 30
0.0
  3
*Paper_Space
  1

  0
ENDBLK
  5
1D
330
1B
100
AcDbEntity
 67
     1
  8
0
100
AcDbBlockEnd
  0
BLOCK
  5
24
330
23
100
AcDbEntity
  8
0
100
AcDbBlockBegin
  2
*Paper_Space0
 70
     0
 10
0.0
 20
0.0
 30
0.0
  3
*Paper_Space0
  1

  0
ENDBLK
  5
25
330
23
100
AcDbEntity
  8
0
100
AcDbBlockEnd
  0
BLOCK
  5
89
330
88
100
AcDbEntity
  8
0
100
AcDbBlockBegin
  2
SW_CENTERMARKSYMBOL_0
 70
     0
 10
0.0
 20
0.0
 30
0.0
  3
SW_CENTERMARKSYMBOL_0
  1

  0
LINE
  5
8B
330
88
100
AcDbEntity
  8
FORMAT
 62
     0
100
AcDbLine
 10
0.0
 20
0.0
 30
0.0
 11
2.5
 21
0.0
 31
0.0
  0
LINE
  5
8C
330
88
100
AcDbEntity
  8
FORMAT
 62
     0
100
AcDbLine
 10
0.0
 20
0.0
 30
0.0
 11
0.0
 21
2.5
 31
0.0
  0
LINE
  5
8D
330
88
100
AcDbEntity
  8
FORMAT
 62
     0
100
AcDbLine
 10
0.0
 20
0.0
 30
0.0
 11
-2.5
 21
0.0
 31
0.0
  0
LINE
  5
8E
330
88
100
AcDbEntity
  8
FORMAT
 62
     0
100
AcDbLine
 10
0.0
 20
0.0
 30
0.0
 11
0.0
 21
-2.5
 31
0.0
  0
LINE
  5
8F
330
88
100
AcDbEntity
  8
FORMAT
 62
     0
100
AcDbLine
 10
5.0
 20
0.0
 30
0.0
 11
82.5
 21
0.0
 31
0.0
  0
LINE
  5
90
330
88
100
AcDbEntity
  8
FORMAT
 62
     0
100
AcDbLine
 10
0.0
 20
5.0
 30
0.0
 11
0.0
 21
82.5
 31
0.0
  0
LINE
  5
91
330
88
100
AcDbEntity
  8
FORMAT
 62
     0
100
AcDbLine
 10
-5.0
 20
0.0
 30
0.0
 11
-82.5
 21
0.0
 31
0.0
  0
LINE
  5
92
330
88
100
AcDbEntity
  8
FORMAT
 62
     0
100
AcDbLine
 10
0.0
 20
-5.0
 30
0.0
 11
0.0
 21
-82.5
 31
0.0
  0
ENDBLK
  5
8A
330
88
100
AcDbEntity
  8
0
100
AcDbBlockEnd
  0
BLOCK
  5
9D
330
9C
100
AcDbEntity
  8
0
100
AcDbBlockBegin
  2
SW_CENTERMARKSYMBOL_1
 70
     0
 10
0.0
 20
0.0
 30
0.0
  3
SW_CENTERMARKSYMBOL_1
  1

  0
LINE
  5
9F
330
9C
100
AcDbEntity
  8
FORMAT
 62
     0
100
AcDbLine
 10
0.0
 20
0.0
 30
0.0
 11
0.0
 21
2.5
 31
0.0
  0
LINE
  5
A0
330
9C
100
AcDbEntity
  8
FORMAT
 62
     0
100
AcDbLine
 10
0.0
 20
0.0
 30
0.0
 11
-2.5
 21
0.0
 31
0.0
  0
LINE
  5
A1
330
9C
100
AcDbEntity
  8
FORMAT
 62
     0
100
AcDbLine
 10
0.0
 20
0.0
 30
0.0
 11
0.0
 21
-2.5
 31
0.0
  0
LINE
  5
A2
330
9C
100
AcDbEntity
  8
FORMAT
 62
     0
100
AcDbLine
 10
0.0
 20
0.0
 30
0.0
 11
2.5
 21
0.0
 31
0.0
  0
LINE
  5
A3
330
9C
100
AcDbEntity
  8
FORMAT
 62
     0
100
AcDbLine
 10
0.0
 20
5.0
 30
0.0
 11
0.0
 21
47.5
 31
0.0
  0
LINE
  5
A4
330
9C
100
AcDbEntity
  8
FORMAT
 62
     0
100
AcDbLine
 10
-5.0
 20
0.0
 30
0.0
 11
-47.5
 21
0.0
 31
0.0
  0
LINE
  5
A5
330
9C
100
AcDbEntity
  8
FORMAT
 62
     0
100
AcDbLine
 10
0.0
 20
-5.0
 30
0.0
 11
0.0
 21
-47.5
 31
0.0
  0
LINE
  5
A6
330
9C
100
AcDbEntity
  8
FORMAT
 62
     0
100
AcDbLine
 10
5.0
 20
0.0
 30
0.0
 11
47.5
 21
0.0
 31
0.0
  0
ENDBLK
  5
9E
330
9C
100
AcDbEntity
  8
0
100
AcDbBlockEnd
  0
ENDSEC
  0
SECTION
  2
ENTITIES
  0
LINE
  5
83
330
1F
100
AcDbEntity
  8
0
  6
Continuous
 62
     7
370
    25
100
AcDbLine
 10
91.6395457036
 20
99.6339211949
 30
0.0
 11
91.6395457036
 21
-21.2192644588
 31
0.0
  0
LINE
  5
84
330
1F
100
AcDbEntity
  8
0
  6
Continuous
 62
     7
370
    25
100
AcDbLine
 10
181.6395492799
 20
-21.2192644588
 30
0.0
 11
181.6395492799
 21
99.6101165899
 31
0.0
  0
CIRCLE
  5
85
330
1F
100
AcDbEntity
  8
0
  6
Continuous
 62
     7
370
    25
100
AcDbCircle
 10
136.6395474917
 20
165.7807419785
 30
0.0
 40
70.50000000000001
  0
CIRCLE
  5
86
330
1F
100
AcDbEntity
  8
0
  6
Continuous
 62
     7
370
    25
100
AcDbCircle
 10
136.6395474917
 20
165.7807419785
 30
0.0
 40
80.0
  0
LINE
  5
87
330
1F
100
AcDbEntity
  8
0
  6
Continuous
 62
     7
370
    25
100
AcDbLine
 10
181.6395492799
 20
-21.2192644588
 30
0.0
 11
91.6395457036
 21
-21.2192644588
 31
0.0
  0
INSERT
  5
93
330
1F
100
AcDbEntity
  8
FORMAT
 62
     7
100
AcDbBlockReference
  2
SW_CENTERMARKSYMBOL_0
 10
136.6395474917
 20
165.7807419785
 30
0.0
  0
LINE
  5
94
330
1F
100
AcDbEntity
  8
0
  6
Continuous
 62
     7
370
    25
100
AcDbLine
 10
216.6395457036
 20
340.6741188379
 30
0.0
 11
216.6395457036
 21
757.6741145463
 31
0.0
  0
LINE
  5
95
330
1F
100
AcDbEntity
  8
0
  6
Continuous
 62
     7
370
    25
100
AcDbLine
 10
56.6395492799
 20
757.6741145463
 30
0.0
 11
56.6395492799
 21
340.6741188379
 31
0.0
  0
CIRCLE
  5
96
330
1F
100
AcDbEntity
  8
0
  6
Continuous
 62
     7
370
    25
100
AcDbCircle
 10
136.6395474917
 20
549.1741166921
 30
0.0
 40
39.60000000000014
  0
CIRCLE
  5
97
330
1F
100
AcDbEntity
  8
0
  6
Continuous
 62
     7
370
    25
100
AcDbCircle
 10
136.6395474917
 20
549.1741166921
 30
0.0
 40
45.00000000000006
  0
LINE
  5
98
330
1F
100
AcDbEntity
  8
0
  6
Continuous
 62
     7
370
    25
100
AcDbLine
 10
136.6395474917
 20
757.6741145463
 30
0.0
 11
216.6395457036
 21
757.6741145463
 31
0.0
  0
LINE
  5
99
330
1F
100
AcDbEntity
  8
0
  6
Continuous
 62
     7
370
    25
100
AcDbLine
 10
56.6395492799
 20
757.6741145463
 30
0.0
 11
136.6395474917
 21
757.6741145463
 31
0.0
  0
LINE
  5
9A
330
1F
100
AcDbEntity
  8
0
  6
Continuous
 62
     7
370
    25
100
AcDbLine
 10
136.6395474917
 20
340.6741188379
 30
0.0
 11
216.6395457036
 21
340.6741188379
 31
0.0
  0
LINE
  5
9B
330
1F
100
AcDbEntity
  8
0
  6
Continuous
 62
     7
370
    25
100
AcDbLine
 10
56.6395492799
 20
340.6741188379
 30
0.0
 11
136.6395474917
 21
340.6741188379
 31
0.0
  0
INSERT
  5
A7
330
1F
100
AcDbEntity
  8
FORMAT
100
AcDbBlockReference
  2
SW_CENTERMARKSYMBOL_1
 10
136.6395474917
 20
549.1741166921
 30
0.0
  0
LINE
  5
A8
330
1F
100
AcDbEntity
  8
0
  6
Continuous
 62
     7
370
    25
100
AcDbLine
 10
-126.5623436979
 20
245.7807401903
 30
0.0
 11
-543.5623394063
 21
245.7807401903
 31
0.0
  0
LINE
  5
A9
330
1F
100
AcDbEntity
  8
0
  6
Continuous
 62
     7
370
    25
100
AcDbLine
 10
-290.0758737436
 20
85.7807437666
 30
0.0
 11
-126.5623436979
 21
85.7807437666
 31
0.0
  0
LINE
  5
AA
330
1F
100
AcDbEntity
  8
0
  6
Continuous
 62
     7
370
    25
100
AcDbLine
 10
-543.5623394063
 20
85.7807437666
 30
0.0
 11
-380.0623433402
 21
85.7807437666
 31
0.0
  0
LINE
  5
AB
330
1F
100
AcDbEntity
  8
0
  6
Continuous
 62
     7
370
    25
100
AcDbLine
 10
-380.0623433402
 20
85.7807437666
 30
0.0
 11
-380.0623433402
 21
-21.2192644588
 31
0.0
  0
LINE
  5
AC
330
1F
100
AcDbEntity
  8
0
  6
Continuous
 62
     7
370
    25
100
AcDbLine
 10
-290.0623397639
 20
-21.2192644588
 30
0.0
 11
-290.0623397639
 21
85.7883359082
 31
0.0
  0
SPLINE
  5
AD
330
1F
100
AcDbEntity
  8
0
  6
Continuous
 62
     7
370
    25
100
AcDbSpline
210
0.0
220
0.0
230
1.0
 70
     8
 71
     3
 72
    38
 73
    34
 74
     0
 42
0.000000001
 43
0.00000001
 40
0.0
 40
0.0
 40
0.0
 40
0.0
 40
0.0023450072839391
 40
0.048709258930175
 40
0.0960964960461379
 40
0.1422633884740091
 40
0.1892569977080829
 40
0.2146197161024749
 40
0.240284461838748
 40
0.2660987765127095
 40
0.2922179772002026
 40
0.3201247732428041
 40
0.3482315555499068
 40
0.3770132200479915
 40
0.4060552210331797
 40
0.4504075062430165
 40
0.4956934513985879
 40
0.5400793036881267
 40
0.5854530607708526
 40
0.6295876150278293
 40
0.6744491368963194
 40
0.6997534463726717
 40
0.7253525254408388
 40
0.7510983355022799
 40
0.7771449598539899
 40
0.8051607981069234
 40
0.8333833079238532
 40
0.8622992231582725
 40
0.89147679552082
 40
0.9179773954267941
 40
0.9447093950883751
 40
0.9722133222672364
 40
1.0
 40
1.0
 40
1.0
 40
1.0
 10
-290.0758737436016
 20
85.78834335882874
 30
0.0
 10
-290.0715173668428
 20
85.78589596389881
 30
0.0
 10
-289.9810289982173
 20
85.73505996259388
 30
0.0
 10
-290.4944686525121
 20
86.02448735560027
 30
0.0
 10
-291.9928431809324
 20
86.85625776818627
 30
0.0
 10
-294.4882738394824
 20
88.19689303304025
 30
0.0
 10
-297.2801757204983
 20
89.62087897225781
 30
0.0
 10
-299.9914326489854
 20
90.92296926875794
 30
0.0
 10
-302.3258705380167
 20
91.9899812915496
 30
0.0
 10
-304.8840777436149
 20
93.09117498188957
 30
0.0
 10
-307.7129288602528
 20
94.22313043366286
 30
0.0
 10
-310.822007824286
 20
95.35747762075103
 30
0.0
 10
-314.2310386925752
 20
96.46135736667966
 30
0.0
 10
-317.8754856177188
 20
97.4728931669274
 30
0.0
 10
-322.4124091773277
 20
98.49789259582161
 30
0.0
 10
-327.9428528675446
 20
99.35647741936195
 30
0.0
 10
-334.3987629174363
 20
99.74106249542383
 30
0.0
 10
-340.9228513885562
 20
99.4816413840598
 30
0.0
 10
-347.2177630403423
 20
98.6203852637028
 30
0.0
 10
-353.2023892877652
 20
97.2692057722681
 30
0.0
 10
-357.929594734402
 20
95.83247808138522
 30
0.0
 10
-361.607902168746
 20
94.52529672838288
 30
0.0
 10
-364.3809708515642
 20
93.44430894560186
 30
0.0
 10
-366.9956042826905
 20
92.34363354105047
 30
0.0
 10
-369.4881105093924
 20
91.22478440341142
 30
0.0
 10
-371.8253962772462
 20
90.1155692154832
 30
0.0
 10
-373.9763716065918
 20
89.04553124779555
 30
0.0
 10
-375.8616049217912
 20
88.07070113708845
 30
0.0
 10
-377.3934583677417
 20
87.25367509255321
 30
0.0
 10
-378.573363043813
 20
86.61012281789498
 30
0.0
 10
-379.4134722827486
 20
86.14461068990647
 30
0.0
 10
-379.9590155503936
 20
85.83894693678587
 30
0.0
 10
-380.0277835194721
 20
85.80021085414309
 30
0.0
 10
-380.0623433402259
 20
85.78074376661989
 30
0.0
  0
LINE
  5
AE
330
1F
100
AcDbEntity
  8
0
  6
Continuous
 62
     7
370
    25
100
AcDbLine
 10
-543.5623394063
 20
85.7807437666
 30
0.0
 11
-543.5623394063
 21
245.7807401903
 31
0.0
  0
LINE
  5
AF
330
1F
100
AcDbEntity
  8
0
  6
Continuous
 62
     7
370
    25
100
AcDbLine
 10
-126.5623436979
 20
85.7807437666
 30
0.0
 11
-126.5623436979
 21
245.7807401903
 31
0.0
  0
LINE
  5
B0
330
1F
100
AcDbEntity
  8
0
  6
Continuous
 62
     7
370
    25
100
AcDbLine
 10
-290.0623397639
 20
-21.2192644588
 30
0.0
 11
-380.0623433402
 21
-21.2192644588
 31
0.0
  0
LINE
  5
B1
330
1F
100
AcDbEntity
  8
0
  6
Continuous
 62
     7
370
    25
100
AcDbLine
 10
628.4783504098
 20
85.7807437666
 30
0.0
 11
791.9783464759
 21
85.7807437666
 31
0.0
  0
LINE
  5
B2
330
1F
100
AcDbEntity
  8
0
  6
Continuous
 62
     7
370
    25
100
AcDbLine
 10
374.9783507674
 20
85.7807437666
 30
0.0
 11
538.4918808131
 21
85.7807437666
 31
0.0
  0
LINE
  5
B3
330
1F
100
AcDbEntity
  8
0
  6
Continuous
 62
     7
370
    25
100
AcDbLine
 10
791.9783464759
 20
245.7807401903
 30
0.0
 11
374.9783507674
 21
245.7807401903
 31
0.0
  0
LINE
  5
B4
330
1F
100
AcDbEntity
  8
0
  6
Continuous
 62
     7
370
    25
100
AcDbLine
 10
538.4783468335
 20
85.7883359082
 30
0.0
 11
538.4783468335
 21
-21.2192644588
 31
0.0
  0
LINE
  5
B5
330
1F
100
AcDbEntity
  8
0
  6
Continuous
 62
     7
370
    25
100
AcDbLine
 10
628.4783504098
 20
-21.2192644588
 30
0.0
 11
628.4783504098
 21
85.7807437666
 31
0.0
  0
SPLINE
  5
B6
330
1F
100
AcDbEntity
  8
0
  6
Continuous
 62
     7
370
    25
100
AcDbSpline
210
0.0
220
0.0
230
1.0
 70
     8
 71
     3
 72
    39
 73
    35
 74
     0
 42
0.000000001
 43
0.00000001
 40
0.0
 40
0.0
 40
0.0
 40
0.0
 40
0.0477499075421058
 40
0.0720200680900439
 40
0.0966673993284962
 40
0.1443546690575319
 40
0.1685208696793231
 40
0.192986404999744
 40
0.2184139821736856
 40
0.2441443367719821
 40
0.2700248753199173
 40
0.2962120547893413
 40
0.3241572312901557
 40
0.3523050053201067
 40
0.3811391303917865
 40
0.410239068081029
 40
0.45442628803736
 40
0.499546894177865
 40
0.5437620139235353
 40
0.5889468124118434
 40
0.6332411357721636
 40
0.6782608083016345
 40
0.7037223422225874
 40
0.7294830302869738
 40
0.7553929828593526
 40
0.7816095775013985
 40
0.8096408686738714
 40
0.8378811543789418
 40
0.8668241655176836
 40
0.8960328213316604
 40
0.9220143312861883
 40
0.9482157690398391
 40
0.9751472950551735
 40
1.0
 40
1.0
 40
1.0
 40
1.0
 10
628.4783504097685
 20
85.78074376661988
 30
0.0
 10
628.380213739323
 20
85.83618758701242
 30
0.0
 10
628.2321964959101
 20
85.91981220379985
 30
0.0
 10
627.3184965801009
 20
86.42836641257662
 30
0.0
 10
626.0937877477028
 20
87.10078132507208
 30
0.0
 10
624.3680359975241
 20
88.02698475672845
 30
0.0
 10
622.2145338501948
 20
89.13385485653934
 30
0.0
 10
620.3432597449294
 20
90.06408056240934
 30
0.0
 10
618.2207580861207
 20
91.07661053611771
 30
0.0
 10
615.8501617308708
 20
92.15140772530313
 30
0.0
 10
613.2561062264397
 20
93.25696384260358
 30
0.0
 10
610.3921743616855
 20
94.38896985026449
 30
0.0
 10
607.2490795169539
 20
95.51829235333128
 30
0.0
 10
603.8071207527822
 20
96.61134258193762
 30
0.0
 10
600.1304256793179
 20
97.60616525272344
 30
0.0
 10
595.5688990287694
 20
98.60148125758397
 30
0.0
 10
590.0281335280754
 20
99.41516263832965
 30
0.0
 10
583.5864607955622
 20
99.7435450189359
 30
0.0
 10
577.0950415398067
 20
99.43190725187372
 30
0.0
 10
570.8306242262372
 20
98.52848707378985
 30
0.0
 10
564.8708783843439
 20
97.14331341115192
 30
0.0
 10
560.157092617163
 20
95.68231006919102
 30
0.0
 10
556.4921592784592
 20
94.3598039384257
 30
0.0
 10
553.7297132179825
 20
93.26875819690812
 30
0.0
 10
551.1296028224533
 20
92.16180570317016
 30
0.0
 10
548.6616846777531
 20
91.04319242363326
 30
0.0
 10
546.3584524221238
 20
89.94120347477894
 30
0.0
 10
544.2501922738832
 20
88.8854437593135
 30
0.0
 10
542.4116416550088
 20
87.9296785030171
 30
0.0
 10
540.9389605812648
 20
87.14095114618985
 30
0.0
 10
539.8226786113438
 20
86.53035533426045
 30
0.0
 10
539.0444724395929
 20
86.09839373278129
 30
0.0
 10
538.5601844531299
 20
85.82682828402424
 30
0.0
 10
538.514031101268
 20
85.80082369196593
 30
0.0
 10
538.4918808131441
 20
85.78834335882875
 30
0.0
  0
LINE
  5
B7
330
1F
100
AcDbEntity
  8
0
  6
Continuous
 62
     7
370
    25
100
AcDbLine
 10
791.9783464759
 20
245.7807401903
 30
0.0
 11
791.9783464759
 21
85.7807437666
 31
0.0
  0
LINE
  5
B8
330
1F
100
AcDbEntity
  8
0
  6
Continuous
 62
     7
370
    25
100
AcDbLine
 10
374.9783507674
 20
245.7807401903
 30
0.0
 11
374.9783507674
 21
85.7807437666
 31
0.0
  0
LINE
  5
B9
330
1F
100
AcDbEntity
  8
0
  6
Continuous
 62
     7
370
    25
100
AcDbLine
 10
628.4783504098
 20
-21.2192644588
 30
0.0
 11
538.4783468335
 21
-21.2192644588
 31
0.0
  0
LINE
  5
BA
330
1F
100
AcDbEntity
  8
0
  6
Continuous
 62
     7
370
    25
100
AcDbLine
 10
56.6395492799
 20
-110.2761743736
 30
0.0
 11
56.6395492799
 21
-527.2761700821
 31
0.0
  0
LINE
  5
BB
330
1F
100
AcDbEntity
  8
0
  6
Continuous
 62
     7
370
    25
100
AcDbLine
 10
216.6395457036
 20
-527.2761700821
 30
0.0
 11
216.6395457036
 21
-110.2761743736
 31
0.0
  0
LINE
  5
BC
330
1F
100
AcDbEntity
  8
0
  6
Continuous
 62
     7
370
    25
100
AcDbLine
 10
216.6395457036
 20
-527.2761700821
 30
0.0
 11
56.6395492799
 21
-527.2761700821
 31
0.0
  0
LINE
  5
BD
330
1F
100
AcDbEntity
  8
0
  6
Continuous
 62
     7
370
    25
100
AcDbLine
 10
216.6395457036
 20
-110.2761743736
 30
0.0
 11
56.6395492799
 21
-110.2761743736
 31
0.0
  0
LINE
  5
BE
330
1F
100
AcDbEntity
  8
0
  6
Continuous
 62
     7
370
    25
100
AcDbLine
 10
767.8258100122
 20
-289.7008214189
 30
0.0
 11
472.962285292
 21
-119.4797318557
 31
0.0
  0
LINE
  5
BF
330
1F
100
AcDbEntity
  8
0
  6
Continuous
 62
     7
370
    25
100
AcDbLine
 10
392.9687890769
 20
-258.0475457479
 30
0.0
 11
535.3973006967
 21
-340.2697753566
 31
0.0
  0
LINE
  5
C0
330
1F
100
AcDbEntity
  8
0
  6
Continuous
 62
     7
370
    25
100
AcDbLine
 10
625.3973000388
 20
-392.2256690646
 30
0.0
 11
687.8323137971
 21
-428.2686353111
 31
0.0
  0
LINE
  5
C1
330
1F
100
AcDbEntity
  8
0
  6
Continuous
 62
     7
370
    25
100
AcDbLine
 10
535.3972990503
 20
-333.8072435154
 30
0.0
 11
535.3972990503
 21
-426.5673206624
 31
0.0
  0
LINE
  5
C2
330
1F
100
AcDbEntity
  8
0
  6
Continuous
 62
     7
370
    25
100
AcDbLine
 10
625.3973000388
 20
-426.5673206624
 30
0.0
 11
625.3973000388
 21
-333.8066898984
 31
0.0
  0
SPLINE
  5
C3
330
1F
100
AcDbEntity
  8
0
  6
Continuous
 62
     7
370
    25
100
AcDbSpline
210
0.0
220
0.0
230
1.0
 70
     8
 71
     3
 72
    16
 73
    12
 74
     0
 42
0.000000001
 43
0.00000001
 40
0.0
 40
0.0
 40
0.0
 40
0.0
 40
0.191347781306689
 40
0.2886053805744986
 40
0.3873744126077049
 40
0.57847118596121
 40
0.6753121875383231
 40
0.7733527104003806
 40
0.8752484150558911
 40
0.978357437000633
 40
1.0
 40
1.0
 40
1.0
 40
1.0
 10
548.5774931267688
 20
-320.828263828231
 30
0.0
 10
547.0171865119061
 20
-321.7638590444728
 30
0.0
 10
544.6638125594084
 20
-323.1749954140885
 30
0.0
 10
542.091102583762
 20
-324.9908721207172
 30
0.0
 10
539.8149393890931
 20
-326.7557391846332
 30
0.0
 10
538.0323916363764
 20
-328.4370708692329
 30
0.0
 10
536.7537766665182
 20
-330.0303469483183
 30
0.0
 10
536.0229622792823
 20
-331.217839363697
 30
0.0
 10
535.5705696257058
 20
-332.3950700103649
 30
0.0
 10
535.371533206377
 20
-333.2585004789037
 30
0.0
 10
535.4134973228286
 20
-333.7258504046158
 30
0.0
 10
535.4207774791042
 20
-333.8069287349193
 30
0.0
  0
SPLINE
  5
C4
330
1F
100
AcDbEntity
  8
0
  6
Continuous
 62
     7
370
    25
100
AcDbSpline
210
0.0
220
0.0
230
1.0
 70
     8
 71
     3
 72
    31
 73
    27
 74
     0
 42
0.000000001
 43
0.00000001
 40
0.0
 40
0.0
 40
0.0
 40
0.0
 40
0.0221164113721672
 40
0.0569188301213964
 40
0.0941031227589965
 40
0.1315538862509132
 40
0.16990389367062
 40
0.2086007853441092
 40
0.2676978006328313
 40
0.328038867176782
 40
0.3871806087792209
 40
0.4476386799549966
 40
0.5064455805542701
 40
0.5662211260801521
 40
0.5999377464734319
 40
0.6340471313655809
 40
0.6683520273506037
 40
0.7030577420674458
 40
0.7403873275381123
 40
0.7779922916621999
 40
0.8165211809090808
 40
0.8553987140923053
 40
0.8907093266209315
 40
0.9263282667775526
 40
0.9629757584975188
 40
1.0
 40
1.0
 40
1.0
 40
1.0
 10
625.3648206236984
 20
-333.8069027934118
 30
0.0
 10
625.3662960470275
 20
-333.1737764356538
 30
0.0
 10
625.3700931987634
 20
-331.544361473335
 30
0.0
 10
625.0431401825201
 20
-328.8539427631248
 30
0.0
 10
624.3956332091462
 20
-325.769274907459
 30
0.0
 10
623.3784590232693
 20
-322.6702774138346
 30
0.0
 10
622.0049765076436
 20
-319.6623154990211
 30
0.0
 10
619.9540996003476
 20
-316.3051868490539
 30
0.0
 10
616.9614816422753
 20
-312.8166752707498
 30
0.0
 10
612.7937128180605
 20
-309.6379732037631
 30
0.0
 10
607.9132406261132
 20
-307.3409235383634
 30
0.0
 10
602.5500562466666
 20
-306.0010565883896
 30
0.0
 10
596.8024567648109
 20
-305.5364712524018
 30
0.0
 10
591.7070047879125
 20
-305.791830908503
 30
0.0
 10
587.3607167002998
 20
-306.3652565227841
 30
0.0
 10
583.8487149144663
 20
-307.0114068704674
 30
0.0
 10
580.2841717173962
 20
-307.8333123038785
 30
0.0
 10
576.6039206627688
 20
-308.8365596958881
 30
0.0
 10
572.8218761246969
 20
-310.0174279439166
 30
0.0
 10
568.9439602435474
 20
-311.373757094266
 30
0.0
 10
565.0763431472169
 20
-312.8633537178741
 30
0.0
 10
561.3800481495147
 20
-314.4136969306287
 30
0.0
 10
557.8987367948107
 20
-315.9856181457617
 30
0.0
 10
554.6354749974934
 20
-317.5636967361174
 30
0.0
 10
551.4826722468254
 20
-319.1879720027889
 30
0.0
 10
549.549182057791
 20
-320.2796389949376
 30
0.0
 10
548.5774931267688
 20
-320.828263828231
 30
0.0
  0
LWPOLYLINE
  5
C5
330
1F
100
AcDbEntity
  8
0
  6
Continuous
 62
     7
370
    25
100
AcDbPolyline
 90
       95
 70
   128
 43
0.0
 10
432.9655371845
 20
-254.0869022926
 10
436.7438990912
 20
-251.7598253583
 10
440.505385795
 20
-249.1513911604
 10
444.2331981546
 20
-246.2732565889
 10
447.9106858601
 20
-243.1382641096
 10
451.5214248112
 20
-239.7604214287
 10
455.0492898873
 20
-236.1548168985
 10
458.4785234354
 20
-232.3375495605
 10
461.7938077102
 20
-228.3256751601
 10
464.9803386311
 20
-224.1371027303
 10
468.0238863684
 20
-219.7905413647
 10
470.910850661
 20
-215.3054135305
 10
473.6283451099
 20
-210.7017394853
 10
476.1642287886
 20
-206.0000855694
 10
478.5071773656
 20
-201.2214471006
 10
480.6467252518
 20
-196.387172332
 10
482.5733156492
 20
-191.5188483876
 10
484.2783506006
 20
-186.6382145735
 10
485.7542067949
 20
-181.7670772085
 10
486.9942935186
 20
-176.9271894755
 10
487.9930789979
 20
-172.1401647317
 10
488.7460956669
 20
-167.4273844931
 10
489.2499823142
 20
-162.8098972967
 10
489.502489352
 20
-158.3083264948
 10
489.502489352
 20
-153.9427755786
 10
489.2499823142
 20
-149.732743197
 10
488.7460956669
 20
-145.6970311401
 10
487.9930789979
 20
-141.8536654415
 10
486.9942935186
 20
-138.2198138661
 10
485.7542067949
 20
-134.8116997882
 10
484.2783506006
 20
-131.6445497147
 10
482.5733156492
 20
-128.732507353
 10
480.6467252518
 20
-126.0885773337
 10
478.5071773656
 20
-123.7245719734
 10
476.1642287886
 20
-121.6510443517
 10
473.6283451099
 20
-119.8772594098
 10
470.910850661
 20
-118.4111376706
 10
468.0238863684
 20
-117.2592278591
 10
464.9803386311
 20
-116.4266719133
 10
461.7938077102
 20
-115.9171897731
 10
458.4785234354
 20
-115.7330611206
 10
455.0492898873
 20
-115.8751025609
 10
451.5214248112
 20
-116.3426843473
 10
447.9106858601
 20
-117.1337121226
 10
444.2331981546
 20
-118.2446565707
 10
440.505385795
 20
-119.6705625355
 10
436.7438990912
 20
-121.4050484441
 10
432.9655371845
 20
-123.440375311
 10
429.1871752777
 20
-125.7674522453
 10
425.4256885739
 20
-128.3758864432
 10
421.6978762143
 20
-131.2540210147
 10
418.0203885089
 20
-134.389013494
 10
414.4096495577
 20
-137.7668561748
 10
410.8817844816
 20
-141.3724607051
 10
407.4525509335
 20
-145.1897280431
 10
404.1372666588
 20
-149.2016024435
 10
400.9507357378
 20
-153.3901748733
 10
397.9071880005
 20
-157.7367362389
 10
395.0202237079
 20
-162.2218640731
 10
392.302729259
 20
-166.8255381183
 10
389.7668455803
 20
-171.5271920342
 10
387.4238970033
 20
-176.305830503
 10
385.2843491171
 20
-181.1401052715
 10
383.3577587198
 20
-186.008429216
 10
381.6527237683
 20
-190.8890630301
 10
380.176867574
 20
-195.7602003951
 10
378.9367808503
 20
-200.6000881281
 10
377.937995371
 20
-205.3871128719
 10
377.1849787021
 20
-210.0998931105
 10
376.6810920547
 20
-214.7173803069
 10
376.4285850169
 20
-219.2189511088
 10
376.4285850169
 20
-223.584502025
 10
376.6810920547
 20
-227.7945344066
 10
377.1849787021
 20
-231.8302464634
 10
377.937995371
 20
-235.6736121621
 10
378.9367808503
 20
-239.3074637374
 10
380.176867574
 20
-242.7155778154
 10
381.6527237683
 20
-245.8827278889
 10
383.3577587198
 20
-248.7947702506
 10
385.2843491171
 20
-251.4387002699
 10
387.4238970033
 20
-253.8027056302
 10
389.7668455803
 20
-255.8762332519
 10
392.302729259
 20
-257.6500181938
 10
395.0202237079
 20
-259.1161399329
 10
397.9071880005
 20
-260.2680497445
 10
400.9507357378
 20
-261.1006056903
 10
404.1372666588
 20
-261.6100878304
 10
407.4525509335
 20
-261.794216483
 10
410.8817844816
 20
-261.6521750427
 10
414.4096495577
 20
-261.1845932563
 10
418.0203885089
 20
-260.393565481
 10
421.6978762143
 20
-259.2826210329
 10
425.4256885739
 20
-257.8567150681
 10
429.1871752777
 20
-256.1222291595
 10
432.9655371845
 20
-254.0869022926
  0
LWPOLYLINE
  5
C6
330
1F
100
AcDbEntity
  8
0
  6
Continuous
 62
     7
370
    25
100
AcDbPolyline
 90
       37
 70
   128
 43
0.0
 10
727.8290619047
 20
-424.3079918558
 10
731.6074238115
 20
-421.9809149215
 10
735.3689105152
 20
-419.3724807236
 10
739.0967228749
 20
-416.4943461521
 10
742.7742105803
 20
-413.3593536728
 10
746.3849495314
 20
-409.981510992
 10
749.9128146076
 20
-406.3759064617
 10
753.3420481556
 20
-402.5586391237
 10
756.6573324304
 20
-398.5467647233
 10
759.8438633513
 20
-394.3581922935
 10
762.8874110886
 20
-390.0116309279
 10
765.7743753812
 20
-385.5265030937
 10
768.4918698301
 20
-380.9228290485
 10
771.0277535088
 20
-376.2211751326
 10
773.3707020859
 20
-371.4425366638
 10
775.510249972
 20
-366.6082618952
 10
777.4368403694
 20
-361.7399379508
 10
779.1418753208
 20
-356.8593041367
 10
780.6177315151
 20
-351.9881667717
 10
781.8578182389
 20
-347.1482790387
 10
782.8566037182
 20
-342.3612542949
 10
783.6096203871
 20
-337.6484740563
 10
784.1135070345
 20
-333.0309868599
 10
784.3660140722
 20
-328.529416058
 10
784.3660140722
 20
-324.1638651418
 10
784.1135070345
 20
-319.9538327602
 10
783.6096203871
 20
-315.9181207033
 10
782.8566037182
 20
-312.0747550047
 10
781.8578182389
 20
-308.4409034293
 10
780.6177315151
 20
-305.0327893514
 10
779.1418753208
 20
-301.8656392779
 10
777.4368403694
 20
-298.9535969162
 10
775.510249972
 20
-296.3096668969
 10
773.3707020859
 20
-293.9456615366
 10
771.0277535088
 20
-291.8721339149
 10
768.4918698301
 20
-290.098348973
 10
767.8258100122
 20
-289.7008214189
  0
LWPOLYLINE
  5
C7
330
1F
100
AcDbEntity
  8
0
  6
Continuous
 62
     7
370
    25
100
AcDbPolyline
 90
       13
 70
   128
 43
0.0
 10
687.8323137971
 20
-428.2686353111
 10
689.8837484281
 20
-429.3372294961
 10
692.7707127207
 20
-430.4891393077
 10
695.8142604581
 20
-431.3216952535
 10
699.000791379
 20
-431.8311773937
 10
702.3160756537
 20
-432.0153060462
 10
705.7453092018
 20
-431.8732646059
 10
709.2731742779
 20
-431.4056828195
 10
712.8839132291
 20
-430.6146550442
 10
716.5614009345
 20
-429.5037105961
 10
720.2892132941
 20
-428.0778046313
 10
724.0506999979
 20
-426.3433187227
 10
727.8290619047
 20
-424.3079918558
  0
LWPOLYLINE
  5
C8
330
1F
100
AcDbEntity
  8
0
  6
Continuous
 62
     7
370
    25
100
AcDbPolyline
 90
       90
 70
   128
 43
0.0
 10
432.9655371845
 20
-246.3297671105
 10
436.4819768426
 20
-244.156370739
 10
439.9808978998
 20
-241.7070136685
 10
443.4448683536
 20
-238.993900643
 10
446.8566313744
 20
-236.0305345335
 10
450.1991899285
 20
-232.8316918204
 10
453.4558914009
 20
-229.4133007377
 10
456.6105118891
 20
-225.7923986945
 10
459.6473319358
 20
-221.9870185933
 10
462.5512260906
 20
-218.0161219174
 10
465.3077248136
 20
-213.8994930327
 10
467.9030987689
 20
-209.6576357722
 10
470.3244141425
 20
-205.3116867489
 10
472.559609033
 20
-200.8832952095
 10
474.5975487699
 20
-196.3945272214
 10
476.428078597
 20
-191.8677409616
 10
478.042081624
 20
-187.325489383
 10
479.4315157054
 20
-182.7904015859
 10
480.5894582214
 20
-178.2850748359
 10
481.510140322
 20
-173.8319498516
 10
482.1889785376
 20
-169.4532127077
 10
482.6225853151
 20
-165.1706811471
 10
482.8088006285
 20
-161.0056899435
 10
482.7467025156
 20
-156.9789853887
 10
482.4365965409
 20
-153.1106306136
 10
481.8800263329
 20
-149.4198991248
 10
481.0797735835
 20
-145.925170811
 10
480.0398106333
 20
-142.6438674891
 10
478.7653268128
 20
-139.5923297123
 10
477.2626757595
 20
-136.7857582091
 10
475.5393332708
 20
-134.2381401144
 10
473.6038946694
 20
-131.9621622766
 10
471.4659931445
 20
-129.9691701852
 10
469.1362865804
 20
-128.2690873599
 10
466.6263811655
 20
-126.8703834047
 10
463.9487760745
 20
-125.7800329369
 10
461.1168160534
 20
-125.0034608302
 10
458.1446071255
 20
-124.5445391643
 10
455.0469560056
 20
-124.4055522381
 10
451.8392976598
 20
-124.5871958025
 10
448.537611012
 20
-125.0885648852
 10
445.1583451871
 20
-125.9071598672
 10
441.7183352167
 20
-127.0389016843
 10
438.2347197217
 20
-128.4781489297
 10
434.7248529962
 20
-130.2177425232
 10
431.2062213727
 20
-132.2490053229
 10
427.6963546472
 20
-134.5618175927
 10
424.2127391523
 20
-137.144667185
 10
420.7727291819
 20
-139.9846763387
 10
417.3934633569
 20
-143.0676986299
 10
414.0917767091
 20
-146.378375809
 10
410.8841183633
 20
-149.9002157398
 10
407.7864672434
 20
-153.6156745217
 10
404.8142583155
 20
-157.5062355713
 10
401.9822982944
 20
-161.5525191206
 10
399.3046932034
 20
-165.734366622
 10
396.7947877885
 20
-170.0309456864
 10
394.4650812244
 20
-174.4208504561
 10
392.3271796995
 20
-178.8822111074
 10
390.3917410982
 20
-183.3927987893
 10
388.6683986094
 20
-187.930145769
 10
387.1657475561
 20
-192.4716412494
 10
385.8912637357
 20
-196.9946667238
 10
384.8513007854
 20
-201.4766857101
 10
384.051048036
 20
-205.8953661816
 10
383.494477828
 20
-210.2286999543
 10
383.1843718533
 20
-214.4550954666
 10
383.1222737404
 20
-218.5534969765
 10
383.3084890538
 20
-222.5034885556
 10
383.7420958313
 20
-226.2853883872
 10
384.4209340469
 20
-229.8803556104
 10
385.3416161475
 20
-233.2704836678
 10
386.4995586635
 20
-236.4388784463
 10
387.8889927449
 20
-239.3697597995
 10
389.502995772
 20
-242.0485231484
 10
391.333525599
 20
-244.4618246567
 10
393.371465336
 20
-246.5976375087
 10
395.6066602265
 20
-248.4453279592
 10
398.0279756
 20
-249.9956857581
 10
400.6233495553
 20
-251.2409880332
 10
403.3798482783
 20
-252.1750312356
 10
406.2837424331
 20
-252.7931630859
 10
409.3205624798
 20
-253.0923053937
 10
412.475182968
 20
-253.0709601486
 10
415.7318844404
 20
-252.7292437474
 10
419.0744429945
 20
-252.0688505
 10
422.4862060154
 20
-251.0930788726
 10
425.9501764691
 20
-249.8067767421
 10
429.4490975263
 20
-248.216365549
 10
432.9655371845
 20
-246.3297671105
  0
LWPOLYLINE
  5
C9
330
1F
100
AcDbEntity
  8
0
  6
Continuous
 62
     7
370
    25
100
AcDbPolyline
 90
       67
 70
   128
 43
0.0
 10
608.3987279278
 20
-442.7322011888
 10
610.9336394302
 20
-441.122435239
 10
613.1920103129
 20
-439.3808564871
 10
615.1533886532
 20
-437.5232375067
 10
616.800007414
 20
-435.5663982389
 10
618.1169587942
 20
-433.528062763
 10
619.092314577
 20
-431.4266894563
 10
619.7172443391
 20
-429.2813084709
 10
619.9860845978
 20
-427.1113495175
 10
619.8964040067
 20
-424.9364643258
 10
619.4490112585
 20
-422.776348725
 10
618.6479616702
 20
-420.6505639646
 10
617.5005084511
 20
-418.5783625959
 10
616.017041458
 20
-416.5785101733
 10
614.2109989499
 20
-414.6691172186
 10
612.0987339041
 20
-412.867476889
 10
609.6993740752
 20
-411.1899051154
 10
607.0346507734
 20
-409.6515930972
 10
604.1286963621
 20
-408.2664721511
 10
601.0078256214
 20
-407.0470874955
 10
597.7003016351
 20
-406.0044813481
 10
594.2360802759
 20
-405.1480940816
 10
590.646533287
 20
-404.4856834381
 10
586.9641670838
 20
-404.023247354
 10
583.2223316774
 20
-403.764973018
 10
579.4549118169
 20
-403.7132015147
 10
575.6960253762
 20
-403.8683996926
 10
571.9797138378
 20
-404.2291639652
 10
568.3396340946
 20
-404.7922248735
 10
564.808750909
 20
-405.5524847227
 10
561.4190385925
 20
-406.5030574998
 10
558.2011994779
 20
-407.6353371144
 10
555.1843697144
 20
-408.9390668743
 10
552.3958711613
 20
-410.4024401359
 10
549.860959659
 20
-412.0122060857
 10
547.6025887762
 20
-413.7537848376
 10
545.641210436
 20
-415.611403818
 10
543.9945916751
 20
-417.5682430858
 10
542.677640295
 20
-419.6065785617
 10
541.7022845122
 20
-421.7079518684
 10
541.07735475
 20
-423.8533328538
 10
540.8085144914
 20
-426.0232918072
 10
540.8981950825
 20
-428.1981769989
 10
541.3455878307
 20
-430.3582925997
 10
542.1466374189
 20
-432.4840773601
 10
543.294090638
 20
-434.5562787288
 10
544.7775576312
 20
-436.5561311514
 10
546.5836001392
 20
-438.4655241061
 10
548.695865185
 20
-440.2671644357
 10
551.0952250139
 20
-441.9447362093
 10
553.7599483157
 20
-443.4830482275
 10
556.665902727
 20
-444.8681691736
 10
559.7867734678
 20
-446.0875538292
 10
563.094297454
 20
-447.1301599766
 10
566.5585188133
 20
-447.9865472431
 10
570.1480658022
 20
-448.6489578866
 10
573.8304320053
 20
-449.1113939707
 10
577.5722674117
 20
-449.3696683067
 10
581.3396872722
 20
-449.42143981
 10
585.098573713
 20
-449.2662416321
 10
588.8148852513
 20
-448.9054773595
 10
592.4549649945
 20
-448.3424164512
 10
595.9858481801
 20
-447.582156602
 10
599.3755604966
 20
-446.6315838249
 10
602.5933996112
 20
-445.4993042103
 10
605.6102293747
 20
-444.1955744504
 10
608.3987279278
 20
-442.7322011888
  0
LWPOLYLINE
  5
CA
330
1F
100
AcDbEntity
  8
0
  6
Continuous
 62
     7
370
    25
100
AcDbPolyline
 90
       72
 70
   128
 43
0.0
 10
612.2171059624
 20
-444.9365039083
 10
614.9048259677
 20
-443.24115122
 10
617.322478846
 20
-441.4153033976
 10
619.4511423085
 20
-439.4732508284
 10
621.2741574842
 20
-437.4301913645
 10
622.777254372
 20
-435.3021153215
 10
623.9486693916
 20
-433.1056767915
 10
624.7792375788
 20
-430.8580674263
 10
625.2624590996
 20
-428.5768776757
 10
625.3945473228
 20
-426.2799595462
 10
625.1744709678
 20
-423.9852912608
 10
624.6039541042
 20
-421.7108297527
 10
623.6874577125
 20
-419.4743783668
 10
622.4321586106
 20
-417.2934378328
 10
620.8478803071
 20
-415.1850781484
 10
618.9470212193
 20
-413.1657998168
 10
616.7444565506
 20
-411.251407251
 10
614.2574283133
 20
-409.4568814163
 10
611.5053961684
 20
-407.7962693911
 10
608.5099040702
 20
-406.282564804
 10
605.2943906055
 20
-404.9276165926
 10
601.8840250161
 20
-403.7420282588
 10
598.3054967939
 20
-402.7350789834
 10
594.586809227
 20
-401.9146500635
 10
590.7570726168
 20
-401.2871602836
 10
586.8462560068
 20
-400.8575229561
 10
582.8849685456
 20
-400.6290987808
 10
578.9042105576
 20
-400.6036768362
 10
574.9351377833
 20
-400.7814555707
 10
571.0088164013
 20
-401.1610443238
 10
567.1559688302
 20
-401.7394701688
 10
563.406753774
 20
-402.5122090868
 10
559.7905159762
 20
-403.4732118183
 10
556.3355517771
 20
-404.614957087
 10
553.0689010143
 20
-405.9285078646
 10
550.0161361234
 20
-407.4035875001
 10
547.2011431723
 20
-409.0286483404
 10
544.6459534382
 20
-410.7909719998
 10
542.3705702105
 20
-412.6767693449
 10
540.3927950998
 20
-414.6712777227
 10
538.7281091704
 20
-416.7588873674
 10
537.3895410667
 20
-418.9232631493
 10
536.3875695491
 20
-421.1474647086
 10
535.7300312971
 20
-423.4140817961
 10
535.4220761289
 20
-425.7053787371
 10
535.4661130001
 20
-428.0034214084
 10
535.8617981507
 20
-430.2902239837
 10
536.60603247
 20
-432.5478903569
 10
537.6929944248
 20
-434.7587502425
 10
539.1141729857
 20
-436.90550288
 10
540.8584492872
 20
-438.97134325
 10
542.9121710433
 20
-440.9401053985
 10
545.2592644995
 20
-442.7963818097
 10
547.8813618617
 20
-444.5256425897
 10
550.757937944
 20
-446.1143569302
 10
553.8664846828
 20
-447.5500877712
 10
557.1826691879
 20
-448.8216012895
 10
560.6805408544
 20
-449.9189438833
 10
564.33272267
 20
-450.8335282804
 10
568.1106318274
 20
-451.5581970269
 10
571.9846990197
 20
-452.0872791321
 10
575.9246088091
 20
-452.416631507
 10
579.8995215561
 20
-452.5436788824
 10
583.8783315695
 20
-452.4674259742
 10
587.8298962795
 20
-452.1884681281
 10
591.7232917531
 20
-451.7089913195
 10
595.5280471359
 20
-451.032747823
 10
599.2143823868
 20
-450.1650284595
 10
602.7534486465
 20
-449.1126241997
 10
606.1175468743
 20
-447.8837729396
 10
609.2803507659
 20
-446.4880916409
 10
612.2171059624
 20
-444.9365039083
  0
ENDSEC
  0
SECTION
  2
OBJECTS
  0
DICTIONARY
  5
C
330
0
100
AcDbDictionary
281
     1
  3
ACAD_GROUP
350
D
  3
ACAD_LAYOUT
350
1A
  3
ACAD_MLINESTYLE
350
17
  3
ACAD_PLOTSETTINGS
350
19
  3
ACAD_PLOTSTYLENAME
350
E
  3
ACAD_SCALELIST
350
47
  0
DICTIONARY
  5
D
102
{ACAD_REACTORS
330
C
102
}
330
C
100
AcDbDictionary
281
     1
  0
DICTIONARY
  5
1A
102
{ACAD_REACTORS
330
C
102
}
330
C
100
AcDbDictionary
281
     1
  3
Layout1
350
1E
  3
Layout2
350
26
  3
Model
350
22
  0
DICTIONARY
  5
17
102
{ACAD_REACTORS
330
C
102
}
330
C
100
AcDbDictionary
281
     1
  3
Standard
350
18
  0
DICTIONARY
  5
19
102
{ACAD_REACTORS
330
C
102
}
330
C
100
AcDbDictionary
281
     1
  0
ACDBDICTIONARYWDFLT
  5
E
102
{ACAD_REACTORS
330
C
102
}
330
C
100
AcDbDictionary
281
     1
  3
Normal
350
F
100
AcDbDictionaryWithDefault
340
F
  0
DICTIONARY
  5
47
102
{ACAD_REACTORS
330
C
102
}
330
C
100
AcDbDictionary
281
     1
  3
A0
350
48
  3
A1
350
49
  3
A2
350
4A
  3
A3
350
4B
  3
A4
350
4C
  3
A5
350
4D
  3
A6
350
4E
  3
A7
350
4F
  3
A8
350
50
  3
A9
350
51
  3
B0
350
52
  3
B1
350
53
  3
B2
350
54
  3
B3
350
55
  3
B4
350
56
  3
B5
350
57
  3
B6
350
58
  3
B7
350
59
  3
B8
350
5A
  3
B9
350
5B
  3
C0
350
5C
  3
C1
350
5D
  3
C2
350
5E
  3
C3
350
5F
  3
C4
350
60
  3
C5
350
61
  3
C6
350
62
  3
C7
350
63
  3
C8
350
64
  3
C9
350
65
  3
D0
350
66
  3
D1
350
67
  3
D2
350
68
  0
LAYOUT
  5
1E
102
{ACAD_REACTORS
330
1A
102
}
330
1A
100
AcDbPlotSettings
  1

  2
none_device
  4

  6

 40
0.0
 41
0.0
 42
0.0
 43
0.0
 44
0.0
 45
0.0
 46
0.0
 47
0.0
 48
0.0
 49
0.0
140
0.0
141
0.0
142
1.0
143
1.0
 70
   688
 72
     1
 73
     0
 74
     5
  7

 75
    16
147
1.0
148
0.0
149
0.0
100
AcDbLayout
  1
Layout1
 70
     1
 71
     1
 10
0.0
 20
0.0
 11
420.0
 21
297.0
 12
0.0
 22
0.0
 32
0.0
 14
1.0000000000E+20
 24
1.0000000000E+20
 34
1.0000000000E+20
 15
-1.0000000000E+20
 25
-1.0000000000E+20
 35
-1.0000000000E+20
146
0.0
 13
0.0
 23
0.0
 33
0.0
 16
1.0
 26
0.0
 36
0.0
 17
0.0
 27
1.0
 37
0.0
 76
     0
330
1B
  0
LAYOUT
  5
26
102
{ACAD_REACTORS
330
1A
102
}
330
1A
100
AcDbPlotSettings
  1

  2
none_device
  4

  6

 40
0.0
 41
0.0
 42
0.0
 43
0.0
 44
0.0
 45
0.0
 46
0.0
 47
0.0
 48
0.0
 49
0.0
140
0.0
141
0.0
142
1.0
143
1.0
 70
   688
 72
     1
 73
     0
 74
     5
  7

 75
    16
147
1.0
148
0.0
149
0.0
100
AcDbLayout
  1
Layout2
 70
     1
 71
     2
 10
0.0
 20
0.0
 11
0.0
 21
0.0
 12
0.0
 22
0.0
 32
0.0
 14
0.0
 24
0.0
 34
0.0
 15
0.0
 25
0.0
 35
0.0
146
0.0
 13
0.0
 23
0.0
 33
0.0
 16
1.0
 26
0.0
 36
0.0
 17
0.0
 27
1.0
 37
0.0
 76
     0
330
23
  0
LAYOUT
  5
22
102
{ACAD_REACTORS
330
1A
102
}
330
1A
100
AcDbPlotSettings
  1

  2
none_device
  4
Letter_(8.50_x_11.00_Inches)
  6

 40
6.35
 41
6.35
 42
6.35000508
 43
6.35000508
 44
215.9
 45
279.4
 46
0.0
 47
0.0
 48
0.0
 49
0.0
140
0.0
141
0.0
142
1.0
143
1.0
 70
  1712
 72
     1
 73
     0
 74
     0
  7

 75
     0
147
1.0
148
0.0
149
0.0
100
AcDbLayout
  1
Model
 70
     1
 71
     0
 10
0.0
 20
0.0
 11
279.4
 21
215.9
 12
0.0
 22
0.0
 32
0.0
 14
0.0
 24
0.0
 34
0.0
 15
279.4
 25
215.9
 35
0.0
146
0.0
 13
0.0
 23
0.0
 33
0.0
 16
1.0
 26
0.0
 36
0.0
 17
0.0
 27
1.0
 37
0.0
 76
     0
330
1F
331
29
  0
MLINESTYLE
  5
18
102
{ACAD_REACTORS
330
17
102
}
330
17
100
AcDbMlineStyle
  2
Standard
 70
     0
  3

 62
   256
 51
90.0
 52
90.0
 71
     2
 49
0.5
 62
   256
  6
BYLAYER
 49
-0.5
 62
   256
  6
BYLAYER
  0
ACDBPLACEHOLDER
  5
F
102
{ACAD_REACTORS
330
E
102
}
330
E
  0
SCALE
  5
48
102
{ACAD_REACTORS
330
47
102
}
330
47
100
AcDbScale
 70
     0
300
1:1
140
1.0
141
1.0
290
     1
  0
SCALE
  5
49
102
{ACAD_REACTORS
330
47
102
}
330
47
100
AcDbScale
 70
     0
300
1:2
140
1.0
141
2.0
290
     0
  0
SCALE
  5
4A
102
{ACAD_REACTORS
330
47
102
}
330
47
100
AcDbScale
 70
     0
300
1:4
140
1.0
141
4.0
290
     0
  0
SCALE
  5
4B
102
{ACAD_REACTORS
330
47
102
}
330
47
100
AcDbScale
 70
     0
300
1:5
140
1.0
141
5.0
290
     0
  0
SCALE
  5
4C
102
{ACAD_REACTORS
330
47
102
}
330
47
100
AcDbScale
 70
     0
300
1:8
140
1.0
141
8.0
290
     0
  0
SCALE
  5
4D
102
{ACAD_REACTORS
330
47
102
}
330
47
100
AcDbScale
 70
     0
300
1:10
140
1.0
141
10.0
290
     0
  0
SCALE
  5
4E
102
{ACAD_REACTORS
330
47
102
}
330
47
100
AcDbScale
 70
     0
300
1:16
140
1.0
141
16.0
290
     0
  0
SCALE
  5
4F
102
{ACAD_REACTORS
330
47
102
}
330
47
100
AcDbScale
 70
     0
300
1:20
140
1.0
141
20.0
290
     0
  0
SCALE
  5
50
102
{ACAD_REACTORS
330
47
102
}
330
47
100
AcDbScale
 70
     0
300
1:30
140
1.0
141
30.0
290
     0
  0
SCALE
  5
51
102
{ACAD_REACTORS
330
47
102
}
330
47
100
AcDbScale
 70
     0
300
1:40
140
1.0
141
40.0
290
     0
  0
SCALE
  5
52
102
{ACAD_REACTORS
330
47
102
}
330
47
100
AcDbScale
 70
     0
300
1:50
140
1.0
141
50.0
290
     0
  0
SCALE
  5
53
102
{ACAD_REACTORS
330
47
102
}
330
47
100
AcDbScale
 70
     0
300
1:100
140
1.0
141
100.0
290
     0
  0
SCALE
  5
54
102
{ACAD_REACTORS
330
47
102
}
330
47
100
AcDbScale
 70
     0
300
2:1
140
2.0
141
1.0
290
     0
  0
SCALE
  5
55
102
{ACAD_REACTORS
330
47
102
}
330
47
100
AcDbScale
 70
     0
300
4:1
140
4.0
141
1.0
290
     0
  0
SCALE
  5
56
102
{ACAD_REACTORS
330
47
102
}
330
47
100
AcDbScale
 70
     0
300
8:1
140
8.0
141
1.0
290
     0
  0
SCALE
  5
57
102
{ACAD_REACTORS
330
47
102
}
330
47
100
AcDbScale
 70
     0
300
10:1
140
10.0
141
1.0
290
     0
  0
SCALE
  5
58
102
{ACAD_REACTORS
330
47
102
}
330
47
100
AcDbScale
 70
     0
300
100:1
140
100.0
141
1.0
290
     0
  0
SCALE
  5
59
102
{ACAD_REACTORS
330
47
102
}
330
47
100
AcDbScale
 70
     0
300
1/128" = 1'-0"
140
0.0078125
141
12.0
290
     0
  0
SCALE
  5
5A
102
{ACAD_REACTORS
330
47
102
}
330
47
100
AcDbScale
 70
     0
300
1/64" = 1'-0"
140
0.015625
141
12.0
290
     0
  0
SCALE
  5
5B
102
{ACAD_REACTORS
330
47
102
}
330
47
100
AcDbScale
 70
     0
300
1/32" = 1'-0"
140
0.03125
141
12.0
290
     0
  0
SCALE
  5
5C
102
{ACAD_REACTORS
330
47
102
}
330
47
100
AcDbScale
 70
     0
300
1/16" = 1'-0"
140
0.0625
141
12.0
290
     0
  0
SCALE
  5
5D
102
{ACAD_REACTORS
330
47
102
}
330
47
100
AcDbScale
 70
     0
300
3/32" = 1'-0"
140
0.09375
141
12.0
290
     0
  0
SCALE
  5
5E
102
{ACAD_REACTORS
330
47
102
}
330
47
100
AcDbScale
 70
     0
300
1/8" = 1'-0"
140
0.125
141
12.0
290
     0
  0
SCALE
  5
5F
102
{ACAD_REACTORS
330
47
102
}
330
47
100
AcDbScale
 70
     0
300
3/16" = 1'-0"
140
0.1875
141
12.0
290
     0
  0
SCALE
  5
60
102
{ACAD_REACTORS
330
47
102
}
330
47
100
AcDbScale
 70
     0
300
1/4" = 1'-0"
140
0.25
141
12.0
290
     0
  0
SCALE
  5
61
102
{ACAD_REACTORS
330
47
102
}
330
47
100
AcDbScale
 70
     0
300
3/8" = 1'-0"
140
0.375
141
12.0
290
     0
  0
SCALE
  5
62
102
{ACAD_REACTORS
330
47
102
}
330
47
100
AcDbScale
 70
     0
300
1/2" = 1'-0"
140
0.5
141
12.0
290
     0
  0
SCALE
  5
63
102
{ACAD_REACTORS
330
47
102
}
330
47
100
AcDbScale
 70
     0
300
3/4" = 1'-0"
140
0.75
141
12.0
290
     0
  0
SCALE
  5
64
102
{ACAD_REACTORS
330
47
102
}
330
47
100
AcDbScale
 70
     0
300
1" = 1'-0"
140
1.0
141
12.0
290
     0
  0
SCALE
  5
65
102
{ACAD_REACTORS
330
47
102
}
330
47
100
AcDbScale
 70
     0
300
1-1/2" = 1'-0"
140
1.5
141
12.0
290
     0
  0
SCALE
  5
66
102
{ACAD_REACTORS
330
47
102
}
330
47
100
AcDbScale
 70
     0
300
3" = 1'-0"
140
3.0
141
12.0
290
     0
  0
SCALE
  5
67
102
{ACAD_REACTORS
330
47
102
}
330
47
100
AcDbScale
 70
     0
300
6" = 1'-0"
140
6.0
141
12.0
290
     0
  0
SCALE
  5
68
102
{ACAD_REACTORS
330
47
102
}
330
47
100
AcDbScale
 70
     0
300
1'-0" = 1'-0"
140
12.0
141
12.0
290
     0
  0
ENDSEC
  0
EOF
